Learn Singing, Guitar, Piano, Bass, Percussion at www.NEATcourses.com
Get Chords at www.NEATchords.com

usa for africa
we are the world bass
Chords and lyrics

difficulty: expert



                  There are people

G|2-----2-2-----2-|----------------|----------------|0-----0-0-----0-|

D|----------------|2-----2-2-----2-|3-----3-0-----0-|----------------|

A|----------------|----------------|----------------|----------------|

E|----------------|----------------|----------------|----------------|

Verse:

G|----------------|----0-----------|--------0-----0-|----------------|

D|----------------|3---------------|3-----3---------|----------------|

A|3-----3-3-----3-|--------3-----3-|----------------|3-----3-3-----3-|

E|----------------|----------------|----------------|----------------|

G|2-----2-2-----2-|----------------|----------------|0-----0-0-----0-|

D|----------------|2-----2-2-----2-|3-----3-0-----0-|----------------|

A|----------------|----------------|----------------|----------------|

E|----------------|----------------|----------------|----------------|

Chorus:

G|----------------|----------------|----------------|----------------|

D|----------------|----------------|----------------|----------------|

A|----------------|3-----3-3-----3-|----------------|3-----3-3-----3-|

E|1-----1-3-----3-|----------------|1-----1-3-----3-|----------------|

G|----------------|----------------|----------------|----------------|

D|----------------|----------------|----------------|----------------|

A|0-----0-0-----0-|----------------|----------------|3-----3-3-----3-|

E|----------------|0-----0-0-----0-|1-----1-3-----3-|----------------|

G|----------------|

D|----------------|

A|3-----3-3-----3-|

E|----------------|

Verse:

G|----------------|----0-----------|--------0-----0-|----------------|

D|----------------|3---------------|3-----3---------|----------------|

A|3-----3-3-----3-|--------3-----3-|----------------|3-----3-3-----3-|

E|----------------|----------------|----------------|----------------|

G|2-----2-2-----2-|----------------|----------------|0-----0-0-----0-|

D|----------------|2-----2-2-----2-|3-----3-0-----0-|----------------|

A|----------------|----------------|----------------|----------------|

E|----------------|----------------|----------------|----------------|

Chorus:

G|----------------|----------------|----------------|----------------|

D|----------------|----------------|----------------|----------------|

A|----------------|3-----3-3-----3-|----------------|3-----3-3-----3-|

E|1-----1-3-----3-|----------------|1-----1-3-----3-|----------------|

G|----------------|----------------|----------------|----------------|

D|----------------|----------------|----------------|----------------|

A|0-----0-0-----0-|----------------|----------------|3-----3-3-----3-|

E|----------------|0-----0-0-----0-|1-----1-3-----3-|----------------|

Break:

G|----------------|----------------|----------------|----------------|

D|----------------|----------------|----------------|----------------|

A|--------1-----1-|3-----3-3-----3-|--------1-----1-|3-----3-3-----3-|

E|4-----4---------|----------------|4-----4---------|----------------|

G|----------------|----------------|----------------|----------------|

D|----------------|----------------|----------------|----------------|

A|0-----0-0-----0-|----------------|----------------|----------------|

E|----------------|0-----0-0-----0-|1-----1-1-----1-|3-----3-3-----3-|

Chorus:

G|----------------|----------------|----------------|----------------|

D|----------------|----------------|----------------|----------------|

A|----------------|3-----3-3-----3-|----------------|3-----3-3-----3-|

E|1-----1-3-----3-|----------------|1-----1-3-----3-|----------------|

G|----------------|----------------|----------------|----------------|

D|----------------|----------------|----------------|----------------|

A|0-----0-0-----0-|----------------|----------------|3-----3-3-----3-|

E|----------------|0-----0-0-----0-|1-----1-3-----3-|----------------|

Keep repeating the Chorus.



simplify

key

chords

key

original:   current:  

transpose  


0

expert