Learn Singing, Guitar, Piano, Bass, Percussion at www.NEATcourses.com
Get Chords at www.NEATchords.com

u2
treasure whatever happened to pete the chop
Chords and lyrics

difficulty: expert



                

Intro/verse

Play these chords Gm     D      F      C    or 

(steady down-pick with slight phaser):

1---------------------------|--------------------------|

2---------------------------|--------------------------|

3---------------------------|--------------------------|

4---5--5--5--5--5--5--5--5--|--4--4--4--4--4--4--4--4--|

5---------------------------|--------------------------|

6---------------------------|--------------------------|

1---------------------------|---------------------------|

3---------------------------|---------------------------|

4---3--3--3--3--3--3--3--3--|--2--2--0--0---------------|

5---------------------------|---------------3--3--5--5--|

6---------------------------|---------------------------|

1-----------------------------------------------------------

2-----------------------------------------------------------

3-----------------------------------------------------------

4---8--8--8-7--5-(for 3 bars)--8--8--7--7--5--5--3--3-- (1 bar)

5-----------------------------------------------------------

6-----------------------------------------------------------

Gm          D                   F                C    

I like to smile, but I like to mostly stay with you

Gm           D                    F              C    

I like good times, but I can't feel this without you

Gm                D                F              C    

By my song, the heart is in the place I sing this song,

probably so

Gm          D                    F                   C    

If I could sigh, I'd tell the world I'd felt with you

Gm           D               F                  C    

I like the time, I like the feeling when I feel you

Gm               D                F              C    

in my arms, I'll take you in my hand, I'll let you go

Gm        D         F           C    

Somebody save me, somebody save me

Gm        D       F         C    

Sing it, Sing my, sing my song

Gm        D       F         C    

We sing the same old song loud

Solo

1---18---17----------------------------------------------------------------

2-------------15---18---------------------17---------------------------17--

3-------------------------15---15---15--------------15---15---15-----------

4--------------------------------------------------------------------------

5--------------------------------------------------------------------------

6--------------------------------------------------------------------------

1--18-------17----15-------------------------------15---17---18---17---18---20--

2------15--------------------------------15---18--------------------------------

3-------------------------15---17-----------------------------------------------

4-------------------------------------------------------------------------------

5-------------------------------------------------------------------------------

6-------------------------------------------------------------------------------

Smile, though your heart breaks in two

Touch me when I will be with you

1---------------------------------------------

2---12---13---10--------12---13------15---13--

3---------------------------------------------

4---------------------------------------------

5---------------------------------------------

6---------------------------------------------

I like good times, but I can feel it's going wrong

You sing the same old song

Now I think it's time to get it right

1---19---20---17--------19---20---22---20---

2-------------------------------------------

3-------------------------------------------

4-------------------------------------------

5-------------------------------------------

6-------------------------------------------

Sing out, sing out

Sing this same old song

If I could swim, I'd swim in circles

If I could drown, I'd drown with you

If I had enough of my life

I can't tell if I had enough of you



simplify

key

chords

key

original:   current:  

transpose  


Gm

D

F

C

None

expert