Learn Singing, Guitar, Piano, Bass, Percussion at www.NEATcourses.com
Get Chords at www.NEATchords.com

u2
the playboy mansion
Chords and lyrics

difficulty: beginner



                words/music by U2 from the album POP

This swanky little number off the Pop album sounds as though it

has a lot of effects.  I don't know everthing The Edge uses but

a Wah Wah would help.

INTRO:

e||---------------------||--------------------------------------|

B||.-------------------.||--------------------------------------|

G||-----9---------------||----9---------------------------------|

D||.9h11-11-9--9-11-11-.||9h11-11-9--9-11-----------------------|

A||----------11---------||---------11----11-9\7-9/11-9-7-9/11-7-|

E||---------------------||--------------------------------------|

E                                                        A

If coke is a mystery and michael jackson history   If beauty

              E                             C#m          B

is truth and surgery the fountain of youth  What am I to do?

               C#m             A

Have I got the gifts to get me through the gates of that mansion

e--------------------------------------------|

B------7\5----3/5-------7\5----3/5-----------|

G--------------------------------------------| <---Riff 1

D------7\6----4/6-------7\6----4/6-----------|

A--------------------------------------------|

E--------------------------------------------|

E                                                              

If oj is more than a drink and a big mac bigger than you think

   A                           E                         C#m

If perfume is an obsession and talk shows confession  What

               B            C#m                        A

have we got to lose another push and (maybe)  we'll be through

the gates of that mansion  [Play Riff 1 as before]

E

I never bought a lotto ticket  I never parked in anyone's space

the banks they're like cathedrals I guess casinos took their

          Riff 1 [6 times]

place love come on down don't wake her she'll come around chance

is a kind of religion where you're damned for plain hard luck

I never did see that movie  I never did read that book love come

on down left my numbers come around

C#m                 B       C#m           A

don't know if I can hold on don't know if I'm that strong

C#m                 B                       C#m               

don't know if I can wait that long till the colours come flashing

        A            Riff 1 [4 times]

and the lights go on then will there be no time for sorrow

then will there be no time for shame  and though I can't say why

I know I've got to believe

         C#m             B                  C#m                

we'll go driving in that pool  it's who you know that gets you

A

through the gates of the playboy mansion

Riff 1 [10 times ('till the end)]

then will there be no time for sorrow

then will there be no time for shame

then will there be no time for sorrow

then will there be no time for shame

_________________

CHORDS USED:

  E   A  C#m  B

e-X---5---4---X-

B-9---5---5---4-

G-9---6---6---4-

D-9---7---6---4-

A-7---7---4---2-

E-X---5---X---X-



simplify

key

chords

key

original:   current:  

transpose  


E

A

C#m

B

1

4

5

6

4

beginner