Learn Singing, Guitar, Piano, Bass, Percussion at www.NEATcourses.com
Get Chords at www.NEATchords.com

u2
are you gonna wait forever
Chords and lyrics

difficulty: expert



                [Intro]  0:18

G|-------------------------------|

D|----------------------------9\-|

A|-------------------------------|

E|-------------------------------|

G|-------------------------------|-------------------------------------|

D|-9-9-9-9-9-7-------------------|-7---7-7-7-7-----9---9-9-9-9-9-9-9-9-|

A|---------------7---7-7-7-7-9---|-------------9-----------------------|

E|-------------------------------|-------------------------------------|

G|-------------------------------|-------------------------------------|

D|-9-9-9-9-9-7-------------------|-7---7-7-7-7-----9---9-9-9-9-9-9-9-9-|

A|---------------7---7-7-7-7-9---|-------------9-----------------------|

E|-------------------------------|-------------------------------------|

G|-------------------------------|

D|-9-9-9-9-9-7-------------------|

A|---------------7---7-7-7-7-9---|

E|-------------------------------|

[Verse 1]  0:36

G|-------------------------------------|

D|-7---7-7-7-7-----9---9-9-9-9-9-9-9-9-|

A|-------------9-----------------------|

E|-------------------------------------|

G|-------------------------------|-------------------------------------|-----------------|

D|-9-9-9-9-9-7-------------------|-7---7-7-7-7-----9---9-9-9-9-9-9-9-9-|-9-9-9-9-9-9-9-9-|

A|---------------7---7-7-7-7-9---|-------------9-----------------------|-----------------|

E|-------------------------------|-------------------------------------|-----------------|

G|--------------------------------------------------------|-----------------|

D|-11-11-11-11-11---------------------9---9-9-9-9-9-9-9-9-|-9-9-9-9-9-9-9-9-|

A|----------------11-9---9-9-9-9-11-----------------------|-----------------|

E|--------------------------------------------------------|-----------------|

G|--------------------------------------------------------|-----------|

D|-11-11-11-11-11---------------------9---9-9-9-9-9-9-9-9-|-9-9-9-9-9-|

A|----------------11-9---9-9-9-9-11-----------------------|-----------|

E|--------------------------------------------------------|-----------|

[Chorus] 1:06

G|-------------------|-------------------------------------|-----------|

D|-7-----------------|-7---7-7-7-7-----9---9-9-9-9-9-9-9-9-|-9-9-9-9-9-|

A|---7-7---7-7-7-9---|-------------9-----------------------|-----------|

E|-------------------|-------------------------------------|-----------|

[Verse 2]  1:22

G|-------------------|-------------------------------------|-----------|

D|-7-----------------|-7---7-7-7-7-----9---9-9-9-9-9-9-9-9-|-9-9-9-9-9-|

A|---7-7---7-7-7-9---|-------------9-----------------------|-----------|

E|-------------------|-------------------------------------|-----------|

G|-------------------|-------------------------------------|-----------------|

D|-7-----------------|-7---7-7-7-7-----9---9-9-9-9-9-9-9-9-|-9-9-9-9-9-9-9-9-|

A|---7-7---7-7-7-9---|-------------9-----------------------|-----------------|

E|-------------------|-------------------------------------|-----------------|

G|--------------------------------------------------------|-----------------|

D|-11-11-11-11-11---------------------9---9-9-9-9-9-9-9-9-|-9-9-9-9-9-9-9-9-|

A|----------------11-9---9-9-9-9-11-----------------------|-----------------|

E|--------------------------------------------------------|-----------------|

G|--------------------------------------------------------|-----------|

D|-11-11-11-11-11---------------------9---9-9-9-9-9-9-9-9-|-9-9-9-9-9-|

A|----------------11-9---9-9-9-9-11-----------------------|-----------|

E|--------------------------------------------------------|-----------|

[Chorus] 1:52

G|-------------------|-------------------------------------|-----------|

D|-7-----------------|-7---7-7-7-7-----9---9-9-9-9-9-9-9-9-|-9-9-9-9-9-|

A|---7-7---7-7-7-9---|-------------9-----------------------|-----------|

E|-------------------|-------------------------------------|-----------|

[Bridge] 2:23

G|-------------------------|-------------------------|-----------------|-----------------|

D|-11-11-11-11-11-11-11-11-|-11-11-11-11-11-11-11-11-|-7-7-7-7-7-7-7-7-|-7-7-7-7-7-7-7-7-|

A|-------------------------|-------------------------|-----------------|-----------------|

E|-------------------------|-------------------------|-----------------|-----------------|

G|-----------------|-----------------|-----------------|-----------------|

D|-----------------|-----------------|-7-7-7-7-7-7-7-7-|-7-7-7-7-7-7-7-7-|

A|-9-9-9-9-9-9-9-9-|-9-9-9-9-9-9-9-9-|-----------------|-----------------|

E|-----------------|-----------------|-----------------|-----------------|

G|-------------------------|-------------------------|-----------------|-----------------|

D|-11-11-11-11-11-11-11-11-|-11-11-11-11-11-11-11-11-|-7-7-7-7-7-7-7-7-|-7-7-7-7-7-7-7-7-|

A|-------------------------|-------------------------|-----------------|-----------------|

E|-------------------------|-------------------------|-----------------|-----------------|

G|-----------------|-----------------|-----------------|---------------|

D|-----------------|-----------------|-7-7-7-7-7-7-7-7-|-9-9-9-9-9---9-|

A|-9-9-9-9-9-9-9-9-|-9-9-9-9-9-9-9-9-|-----------------|---------------|

E|-----------------|-----------------|-----------------|---------------|

[Chorus] 2:52

G|-------------------|-------------------------------------|-----------|

D|-------------------|-7---7-7-7-7-----9---9-9-9-9-9-9-9-9-|-9-9-9-9-9-|

A|---7-----7-7-7-9---|-------------9-----------------------|-----------|

E|-------------------|-------------------------------------|-----------|

G|-------------------|-------------------------------------|-----------|

D|-7-----------------|-7---7-7-7-7-----9---9-9-9-9-9-9-9-9-|-9-9-9-9-9-|x5

A|---7-7---7-7-7-9---|-------------9-----------------------|-----------|

E|-------------------|-------------------------------------|-----------|

G|-------------------|

D|-7------9----------|

A|---7~--------------|

E|-------------------|



simplify

key

chords

key

original:   current:  

transpose  


0

expert

 

Learn the NEW Way to Sing With Freedom,
Confidence, and Control

click to watch now