Learn Singing, Guitar, Piano, Bass, Percussion at www.NEATcourses.com
Get Chords at www.NEATchords.com

threshold
the shire part 2
Chords and lyrics

difficulty: expert



                [Intro]

   C#m      A         E

e|-----------------------------------|

B|-5-------------------------9-7---7-|

G|----------6--------------------9---|

D|-------6--------9-7-9--------------|

A|-----------------------------------|

E|-----------------------------------|

   C#m      A          E

e|-------7----------------------|

B|-9--------7-------7--9--------|

G|-------------9----------------|

D|------------------------------|

A|------------------------------|

E|------------------------------|

   C#m         A           E

e|--------------------------------|

B|--------------------------------|

G|-------------4/6----------------|

D|-------4-6-7---------9-7-9------|

A|-4-6-7--------------------------|

E|--------------------------------|

   F#m       B        C#

e|-----------------------------|

B|-----5-7---4------4-6--------|

G|---4------------6------------|

D|-6---------------------------|

A|-----------------------------|

E|-----------------------------|

[Verse 1]

Am               Em          Bm

Once there was a man of many means

  Gm           Dm             Am

Inherited from someone else's dreams

   Am                Em                 Bm

He said one day I'll plough and sow the seeds

   Gm           Dm                Am

If only I could learn to tame the weeds

[Chorus]

C#m              A

And every time I get to the end

     E

I'll turn round and start again, 'Cause they're coming back

C#m                A

Can't take it anymore

                   E

Can't take it anymore, Tell me what is this for, 'cause

C#m          A

I just can't wait any longer

E

My heart won't beat any stronger

F#m       B          C#

This life is not for me

   Am

e|---------------------------------------------|

B|---------------------------------------------|

G|-5-----4---------------4-5-----4-------------|

D|---------7-5-7-----5-7-----------7-5-7-------|

A|---------------------------------------------|

E|---------------------------------------------|

[Verse 2]

   Am               Em               Bm

So off he went and bought some new machines

    Gm            Dm            Am

And chemicals to subjugate the seeds

   Am                Em               Bm

But now the roots had multiplied and grown

    Gm              Dm                 Am

And crowded out the seeds that he had sown

[Bridge]

(Toggle the displayed chords)

(x22x)     (x12x)        (x12x)

F#m*          E6(5)           Fm(#5)

And underneath the setting sun

(x43x) (x22x) (x10x) (x12x)

Bm/F#    F#m*    E*      Fm(#5)

Now ____ he ____ knew ____ it

(x22x)     (x12x)  (x12x)

F#m*          E6(5)    Fm(#5)

All we saw was toil to come

(x43x) (x22x) (x10x)

Bm/F#    F#m*    E*

And no way through

[Chorus]

C#m              A

And every time I get to the end

     E

I'll turn round and start again, 'Cause they're coming back

C#m                A

Can't take it anymore

                   E

Can't take it anymore, Tell me what is this for, 'cause

C#m          A

I just can't wait any longer

E

My heart won't beat any stronger

F#m       B          C#

This life is not for me

[Guitar Solo]

[Interlude]

 Live, love, laugh, hope, sow, grow

[Chorus]

C#m              A

And every time I get to the end

     E

I'll turn round and start again, 'Cause they're coming back

C#m                A

Can't take it anymore

                   E

Can't take it anymore, Tell me what is this for, 'cause

C#m          A

I just can't wait any longer

E

My heart won't beat any stronger

F#m       B          C#

This life is not for me

[Guitar solo]

Fm       Bb          C

This life is not for me

[Outro]

- Fade out (3-4 times)

1st Guitar:   Am

e|---------------------------------------------|

B|---------------------------------------------|

G|-5-----4---------------4-5-----4-------------|

D|---------7-5-7-----5-7-----------7-5-7-------|

A|---------------------------------------------|

E|---------------------------------------------|

2nd Guitar

e|---------------------------------------------|

B|-5-----3---------------3-5-----3-------------|

G|---------5-4-5-----4-5-----------5-4-5-------|

D|---------------------------------------------|

A|---------------------------------------------|



simplify

key

chords

key

original:   current:  

transpose  


C#m

A

E

F#m

B

C#

Am

Em

Bm

Gm

Dm

Fm

Bb

C

None

expert