Learn Singing, Guitar, Piano, Bass, Percussion at www.NEATcourses.com
Get Chords at www.NEATchords.com

the taxpayers
montana
Chords and lyrics

difficulty: expert



                

Intro

e|--------------------------------------------------------------------------|

B|-----1-1----1-1----1-1----1-1----1-1----1-1-1-----------------------------|

G|-----0-0----0-0----0-0----0-0----0-0----0-0-0-----------------------------|

D|-----2-2----2-2----2-2----2-2----2-2----2-2-2-----------------------------|

A|--3--3-3--------3--3-3--------3--3-3--------3---0-2-----------------------|

E|---------3--3-3--------3--3-3--------3--3-3---3---------------------------|

Play this chord( C/G ) while He sings "stuck on a f**king train in montana" the first time

C/G chord:

e|-----|

B|--1--|

G|--0--|

D|--2--|

A|--3--|

E|--3--|

Use this fill to lead into the second time He says "stuck on a f**king train in montana"

Fill:

e|--------------|

B|--1-----------|

G|--0-----------|

D|--2----0-2----|

A|--3--3--------|

E|--3-----------|

Then play the 4 highest notes of an F chord, while switching off the lowest F note with

a C, while he's saying "stuck on a f**king train in montana" the second time, then lead

back into the C/G chord as the singer says the "tana" part of "montana"

e|----1-1---1-1---1-1---1-1---------|

B|----1-1---1-1---1-1---1-1--1------|

G|----2-2---2-1---2-2---2-2--0------|

D|--3-3-3-------3-3-3--------2------|

A|--------3-3-3-------3-3-3--3------|

E|---------------------------3------|

As he says "Up against the wall, Bored" play a G chord

G chord:

e|--3--|

B|--0--|

G|--0--|

D|--0--|

A|--2--|

E|--3--|

As he says "outta my skull, God" play a full F chord

F chord:

e|--1--|

B|--1--|

G|--2--|

D|--3--|

A|--3--|

E|--1--|

when he says "damn it" repeat from the top, this goes the same for the verses



simplify

key

chords

key

original:   current:  

transpose  


0

expert