Learn Singing, Guitar, Piano, Bass, Percussion at www.NEATcourses.com
Get Chords at www.NEATchords.com

the story so far
5pm fucked up
Chords and lyrics

difficulty: beginner



                Intro:

                 G           

E|-----------------------------------|

B|-----------------------------------|

G|-----------------------------------|

D|-----------------------------------|

A|--0h2--0h2--0----------------------|

E|----------------3--0--3------------|

Strumming:

         G                   F                      Cadd9

E|---3----3---3-3-3-------x-x---x-x--------3---3-3-3-3-3---3-3-3-3-3---|

B|---3----3---3-3-3-------x-x---x-x--------3---3-3-3-3-3---3-3-3-3-3---|

G|---0----0---0-0-0-------3-3---3-3--------0---0-0-0-0-0---0-0-0-0-0---|

D|---0----0---0-0-0-------2-2---2-2--------2---2-2-2-2-2---2-2-2-2-2---|

A|---2----2---2-2-2-------2-2---2-2--------3---3-3-3-3-3---3-3-3-3-3---|

E|---3----3---3-3-3-------1-1---1-1--------x---x-x-x-x-x---x-x-x-x-x---|

     D    D   U D U       D D   D U        D   U D D U U   U D U D U

 G             F          Cadd9

I, never wanted to be the last thing on your mind

G                 F           Cadd9

I Just don't know how else to love

G                   F           Cadd9

If you don't agree with me then peace see you whenever

G                   F      Cadd9

well, messed it up once again

[solo] (0:51)- check solo tab by StayFrosty288

G   F    Cadd9

G  F     Cadd9

G   F    Cadd9

G   F    Cadd9

Outro( 1:27)

G   F  Cadd9 D  G F Cadd9

       G             F            Em7             D               G            F        Cadd9

E|---3---3--3-3---x---x-x-x----3---3--3-3----2---2-2--2-2---3--3-3--3-3-3---x-x---x-x--3--3---|

B|---3---3--3-3---x---x-x-x----3---3--3-3----3---3-3--3-3---3--3-3--3-3-3---x-x---x-x--3--3---|

G|---0---0--0-0---3---3-3-3----0---0--0-0----2---2-2--2-2---0--0-0--0-0-0---3-3---3-3--0--0---|

D|---0---0--0-0---2---2-2-2----2---2--2-2----0---0-0--0-0---0--0-0--0-0-0---2-2---2-2--2--2---|

A|---2---2--2-2---2---2-2-2----2---2--2-2-------------------2--2-2--2-2-2---2-2---2-2--3--3---|

E|---3---3--3-3---1---1-1-1----0---0--0-0-------------------3--3-3--3-3-3---1-1---1-1--x--x---|

     D   D  D U   D   D D U    D   D  D U    D   U D  D U   D  U D  U D U   D D   D U  D D



simplify

key

chords

key

original:   current:  

transpose  


G

5

0

beginner