Learn Singing, Guitar, Piano, Bass, Percussion at www.NEATcourses.com
Get Chords at www.NEATchords.com

the inkspots
i dont want to set the world on fire
Chords and lyrics

difficulty: expert



                [INTRO]

                                      ^  v  ^

e||----------|----------|----------|-(3)-5--3--||

b||----------|----------|----------|-(3)-3--3--||

g||----------|----------|----------|--3--3--3--||

d||------0---|------0---|------0---|--5-(5)(5)-||

a||----3---3-|----3---3-|----3---0-|--3-(3)(3)-||

e||-1--------|-2--------|-3--------|-----------||

[Fill]

                                      ^  v  ^

e||----------|----------|----------|-(3)-3--3--||

b||----------|----------|----------|-(5)-5--5--||

g||----------|----------|----------|--3--3--3--||

d||------0---|------0---|------0---|--5-(5)(5)-||

a||----3---3-|----3---3-|----3---0-|--3-(3)(3)-||

e||-1--------|-2--------|-3--------|-----------||

[CHORUS]

F                       Am     G#m Gm

I don't want to set the world  on  fire,

Bbm C7                                 Play FILL once

I   just want to start a flame in your heart.

F                      Am  G#m Gm

In my heart I have but one de--sire,

Bbm C7                             F Bbm F

and that one is you, no other will do-o-o.

[BRIDGE]

     Cm7         F7         Cm7        F7

I've lost all am-bition for worldly ac-claim;

Bb

I just want to be the one you lo-ove.

    Dm7          G7           Dm7          G7

And with your ad-mission that you feel the same,

G7                                      C7

I'll have reached the goal I'm dreaming of, believe me.

[CHORUS]

F                       Am    G#m Gm

I don't want to set the world on  fire,

Bbm C7                                 Play FILL once

I   just want to start a flame in your heart.

[CHORUS] (spoken)

I don't wanna set the world on fire, honey. I love you too much.

I just wanna start a great big flame down in your heart.

You see, way down inside of me, darling, I have only one desire.

And that one desire is you and I know nobody else ain't gonna do.

[BRIDGE]

     Cm7         F7         Cm7        F7

I've lost all am-bition for worldly ac-claim;

Bb

I just want to be the one you lo-ove.

    Dm7          G7           Dm7          G7

And with your ad-mission that you feel the same,

G7                                      C7

I'll have reached the goal I'm dreaming of, believe me.

[CHORUS]

F                       Am    G#m Gm

I don't want to set the world on  fire,

Bbm C7                                 F  Bbm F



simplify

key

chords

key

original:   current:  

transpose  


F

Am

G#m

Gm

Bbm

C7

Cm7

F7

Bb

Dm7

G7

None

expert