Learn Singing, Guitar, Piano, Bass, Percussion at www.NEATcourses.com
Get Chords at www.NEATchords.com

tehosekoitin
ma haluun rauhoittua
Chords and lyrics

difficulty: expert



                Mä Haluun Rauhoittua                                          Tehosekoitin

====================

Riff

|nc   |     |     |     |

Instrumental

|Dm   |     |C    |     |G    |     |Bb   |     |

Dm                        C

Tyhjät aivot, täysi pää.  Joskus liikaa aikaa jää

G                                   Bb          C

ajatella vain, ajatella vain kaiken turhuutta

Dm                     C

Niin paljon mutkia,   joista huomaa et on kakara.

   G                                         Bb

Ei haluu muuta kuin, haluu muuta kuin kutistua

    Bb                        F

Anna mun ees hetken aikaa olla sun.

         Bb                          F

Anna rauhoittuu sun luona tai mä luhistun.

         Gm                       Dm  Dmaj7 Dm7

Niin sekaisin saa pään joskus maa-ilma  tää

         Dm

vain rakkaudella kai se selviää

Riff

|nc   |     |     |     |

Dm                    C

Voi yöunet menettää   katsomalla tähtiä

   G                                     Bb     C

ja turhaan yrittää, turhaan yrittää käsittää

Dm                    C

Mä sanon sulle näin,   jos me oltais vierekkäin

     G                                         Bb

niin voitais unohtaa, voitais unohtaa maailman pauhu

Anna mun ees hetken aikaa olla sun

Riff

|nc   |     |     |     |

Dm                            C

Meidät viskattiin maailmaan   kertomatta san*llakaan,

G                                          Bb     C

miksi täällä oon mitä täällä teen, moni ei tiedä

Dm                           C

Et pyytäis nyt laputtamaan,  on vierelläs huojentavaa

   G                                    Bb

ja kaikki unohtuu, kaikki unohtuu vaivihkaa

Anna mun ees hetken aikaa olla sun

Riff

nc

e|----------------|----------------| 

B|----------------|----------------|

G|----2---0---2---|--2-----0-2-0---|

D|0-------------0-|------3-------3-|

A|----------------|----------------|

E|----------------|----------------|

Instrumental

  Dm                                C

e|----------------|----------------|----------------|----------------|

B|----------------|----------------|----------------|----------------|

G|----2---0---2---|--2-----0-2-0---|----0-------0---|--0-------0-----|

D|0-------------0-|------3-------3-|--------3-------|------2-3---3-2-|

A|----------------|----------------|3-------------3-|----------------|

E|----------------|----------------|----------------|----------------|

  G                                 Bb

e|----------------|----------------|----------------|----------------|

B|----------------|----------------|----------------|----------------|

G|----------------|----------------|----------------|----------------|

D|----3---2---3---|--3---0-2-3-2-0-|----------------|--0---2---3-2-0-|

A|1-------------1-|----------------|0---2---4---0-4-|----------------|

E|----------------|----------------|----------------|----------------|

Dm

e|----------------|-------|

B|----------------|-------|

G|----------------|-------|

D|0---------------|-------|

A|----------------|-------|

E|----------------|-------|

       Tyhjä aivot



simplify

key

chords

key

original:   current:  

transpose  


Dm

C

G

Bb

F

Gm

Dmaj7

Dm7

None

expert