Learn Singing, Guitar, Piano, Bass, Percussion at www.NEATcourses.com
Get Chords at www.NEATchords.com

tapes n tapes
freak out
Chords and lyrics

difficulty: intermediate



                Great Tune

All Chords:

F#m (9th)

A   (5th)

C#m (9th)

B   (7th)

C#m (4th)

E   (7th)

Into:

F#m         A

Even in the morning

         C#m

With the light upon your face,

       F#m             A       B C#m

I look up and show the motions I use.

F#m            A

I can hear you breathing,

B          C#m       B

I feel the space and I

    B

Oh, I,

                          C#m (4)

I’ll be the one you never know.

Verse:

Once you were the wildest man,

  A     E

I never known,

C#m (4)

If you want the other side,

A       E

On your own,

B                                          C#m (4)

I’ll go, I’ll go in the place you’ll never know.

Waite until your wedding day,

A           E

Then you’ll know!

C#m

Take it for your medicine,

     A        E

Take what you saw!

Chorus:

B

Freak out, freak out, freak out!

C#m       E

I’ve been sure,

E

Will you look me in the eyes?

E

Will you run from what you see?

E

Will you see me in the light?

                        B

Hope you do, I hope you stay!

      C#m (4)

And I believe,

Verse:

Once it’s never, nothing…

  A         E

I heard you say,

C#m (4)

Once it’s never, nothing…

     A       E

Take all you can!

Chorus X2

Little bit before the bridge:

--------------------------------------|

--------------------------------------|

--------------------------------------|

----11---11---11---14---11---11---9---|

--------------------------------------|

--------------------------------------|

--------------------------------------|

--------------------------------------|

----------------------------11----13--|

----11---11---11---14---11------------|

--------------------------------------|

--------------------------------------|

--------------------------------------|

--------------------------------------|

--------------------------------------|

----11---11---11---14---11---11---9---|

--------------------------------------|

--------------------------------------|

--------------------------------------|

--------------------------------------|

--------------------------------------|

--------------------------------------|

----11-11-11-10-10-10-9-9-9-7---------|

Bridge:

F#m         A

Even in the morning,

C#m (9)

Even inside,

F#m       A

I come on over,

    C#m (9)

And wake you in the night.

F#m        A

I feel you trembling,

C#m (9)

I hear you call,

B

I’ll be waiting

F#m           A

Up inside the moment

              C#m (9)

I thought you knew,

F#m       A

I see you walking,

               C#m (9)

You’re turning blue,

B

…and hear me say,

                         C#m (9)

I’ll be holding on for a day!

Outro:

E

Will you look me in the eyes?

E

Will you run from what you see?

E

Will you see me in the light?

                        B

Hope you do, I hope you stay!

                          E

Don’t go running from the light,

E

Don’t go running to the sea!

E

…inside my mind,

           B

I hope you go there, stay there,

                        E

Hide there, wait there!

Pow.



simplify

key

chords

key

original:   current:  

transpose  


F#m

A

C#m

B

E

1

2

4

5

6

4

intermediate