Learn Singing, Guitar, Piano, Bass, Percussion at www.NEATcourses.com
Get Chords at www.NEATchords.com

roy orbison
oh pretty woman
Chords and lyrics

difficulty: expert



                [Intro]

e|-----------------------------------------------|

B|-----------------------------------------------|

G|-----------------------------------------------|

D|-----------------------------------------------|

A|------------2--5------------------2--5---------|

E|--0-0--3/4----------------0-0-3/4--------------|

[Riff]

e|-----------------------------------------------|

B|-----------------------------------------------|

G|-----------------------------------------------|

D|-----------------4-2--------------------4-2----|

A|------------2--5------5-----------2--5------5--|

E|--0-0--3/4----------------0-0-3/4--------------|

[Verse 1]

A                     F#m

Pretty woman, walking down the street.

       A                 F#m

Pretty woman, the kind I like to meet.

       D                E

Pretty woman..I don't believe you, you're not the truth.

No one could look as good as you..Mercy!

(RIFF: X4)

[Verse 2]

       A                F#m

Pretty woman, won't you pardon me?

       A                 F#m

Pretty woman, I couldn't help but see.

       D                    E

Pretty woman..that you look lovely as can be.

Are you lonely just like me? Rrrrrooowww.

(RIFF: X4)

[Chorus]

Dm            G7

Pretty woman, stop a while.

C             Am

Pretty woman, talk a while.

Dm            G7                 C 

Pretty woman, give your smile to me.

Dm            G7

Pretty woman, yeah, yeah, yeah.

C             Am

Pretty woman, look my way.

Dm            G7                   C  A

Pretty woman, say you'll stay with me..

        F#m       Dm             E

cause I need you, I'll treat you right.

A            F#m   D         E

Come with me baby, be mine tonight.

(RIFF: X4)

[Verse 3]

A                   F#m

Pretty woman, don't walk on by.

A                   F#m

Pretty woman, don't make me cry.

       D            E

Pretty woman..don't walk away, heyokay.

E

If that's the way it must be, okay.

E

I guess I'll go on home, it's late.

E

There'll be tomorrow night, but wait..

What do I see?

(INTRO RIFF:)

E

Is she walking back to me?

E

Yeah, she's walking back to me.

E                A



simplify

key

chords

key

original:   current:  

transpose  


A

F#m

D

E

Dm

G7

C

Am

None

expert