Learn Singing, Guitar, Piano, Bass, Percussion at www.NEATcourses.com
Get Chords at www.NEATchords.com

rolling stones
now ive got a witness
Chords and lyrics

difficulty: beginner



                Gtr I (E A D G) - 'Bill Wyman - Bass'

[Intro, Melody, Organ & Guitar Solos]

     Q=98

     Gtr I

     E E E E E  E E E   E E E E E  E E E   E E E E E  E E E   E E E E E  E E E

G||-------------------|------------------|------------------|------------------|

D||o------------------|------------------|------------------|------------------|

A||o-7-------7-10-9-8-|-7-------7-10-9-8-|-7-------7-10-9-8-|-7-------7-10-9-8-|

E||------7------------|-----7------------|-----7------------|-----7------------|

   E E E E E  E E E   E E E E E  E E E   E E E E E  E E E

G|------------------|------------------|------------------|

D|-7-------7--------|-7-------7--------|------------------|

A|-----7-----10-9-8-|-----7-----10-9-8-|-7-------7-10-9-8-|

E|------------------|------------------|-----7------------|

   E E E E E  E E E   E E  E E E  E E E   E E E E E  E E E

G|------------------|-------------------|------------------|

D|------------------|-9--------9--------|-7-------7--------|

A|-7-------7-10-9-8-|-----10-----11-9-7-|-----7-----10-9-8-|

E|-----7------------|-------------------|------------------|

                     1.,2.,3.,4.          5.

   E E E E E  E E E   E E E E E  E E E  5x E E E E E  E E E

G|------------------|-------------------||------------------*|

D|------------------|------------------o||------------------*|

A|-7-------7-10-9-8-|-7-------7-10-9-8-o||-7-------7-10-9-8-*|

E|-----7------------|-----7-------------||-----7------------*|



simplify

key

chords

key

original:   current:  

transpose  


E

1

4

beginner