Learn Singing, Guitar, Piano, Bass, Percussion at www.NEATcourses.com
Get Chords at www.NEATchords.com

queen
who needs you
Chords and lyrics

difficulty: expert



                INTRO RIFF: 

|----------------------------------------------------|

|----------------------------------------------------|

|----------------------------------------------------|

|---------2/4---2-------4p2p0---------2--------------|

|-0---4-----------------------2-------0--------------|

|---------------------------------0------------------|

A                    D               A

I make it half past six you come at seven

D                 A        B7       E

Always trying to keep me, hanging around

A                         D                A

You little spoilt thing, girl you kept me waiting

D             A         B7       E

Never contemplating my point of view

D    E7/G#     A

This comes as no suprise

D    E7/G#       A

I'm fool, for I believed your lies

D   E7/G#          A             F#m

But now I've seen through your disguise

Bm7 E7       C#m7        F#7    Bm7  E7    A

Who needs, 'cause I don't need, who needs you ?

bridge: A E A E

BRIDGE SOLO:

|-5------------------------9-12-10-9-10----------10----10-9-12----------|

|-----------------------10-------------------------------------10-9-----10

|---------------------9--------------------------------------------10-8-|

|-2---------------------------------------------------------------------|

|-0---------------------------------------------------------------------|

|-----------------------------------------------------------------------|

|-----------------------9-12-9-----------------------------|

|-10------------------10-------10-9------------------------|

|--------------------9--------------11-10-9----------------|

|------------------11--------------------------------------|

|----------------------------------------------------------|

|----------------------------------------------------------|

B       A     E

Oh I believed you

F#m     G#m   E

Went on my knees to you

B       A      E

How I trusted you

F#m            G#m  E

But you turned me down

C#m                     A

But it's dog eat dog in this rat race

C#m7                         F#sus4   F#

And it leaves you bleeding lying flat on your face

A                      B                  E

Reaching out, reaching out for a helping hand

E7

(Where is that helping hand ?)

SOLO: (Verse Chords)

|---------------------9-----------10------9h10p9------------12-----------10---|

|-10---10p9-10---12-------10----------------------12---10--------10-----------|

|-----------------------------------------------------------------------------|

|-----------------------------------------------------------------------------|

|-----------------------------------------------------------------------------|

|-----------------------------------------------------------------------------|

|-----9h10p9-----------12------------11------------------------------------9-10-|

|------------12---10--------10------------12-----------------------9-10-12------|

|----------------------------------------------11---10---9-----9-11-------------|

|-------------------------------------------------------------------------------|

|-------------------------------------------------------------------------------|

|-------------------------------------------------------------------------------|

|-12-------12/14-12-------10h12p10-9---10-------9-------------12-----------10-p-|

|------9---------------------------------------------12---10-------10-----------|

|-------------------------------------------------------------------------------|

|-------------------------------------------------------------------------------|

|-------------------------------------------------------------------------------|

|-------------------------------------------------------------------------------|

|p9------------------------------------------------------------12--------|

|-----12---10---9---10---------------------------------------------------|

|------------------------9-------8----------------9----------------------|

|-----------------------------------------9------------------------------|

|------------------------------------------------------------------------|

|------------------------------------------------------------------------|

|-14---p10---------10--------------------------9------------------------------|

|------------12---------12---9------------------10-------------------10-------|

|--------------------------------11---10---9------9---------------------------|

|--------------------------------------------------12---11--------------------|

|-----------------------------------------------------------------------------|

|-----------------------------------------------------------------------------|

|-----------------------------------9------------------------------|

|-12---------------------------------9-----------------------------|

|------9---9/11-9---------------------9----------------------------|

|--------------------------------------9---9---8-------------------|

|------------------------------------------------------------------|

|------------------------------------------------------------------|

|-7-----------------------------------------------------------------|

|--7----------------------------------------------------------------|

|---7--------------------9\---------------11---9------_____---------|

|----9---7---6------------------7---/11---------------4p2p0---------|

|--------------------7--------------------------------------2-------|

|---------------------------------------------------------------0---|

B          A        E

How I was pushed around

F#m      G#m         E

"Don't let it get you down"

B         A          E

You walked all over me

F#m                G#m    E

"But don't you ever give in"

C#m                         A

Taking one step forward, slipping two steps back

C#m7                           F#sus4    F#

There's an empty feeling that you can't forget

A                        B                 E

Reaching out, reaching out for a helping hand

A           D                    A

When I met, you were always charming

D                    A            B7    E

Couldn't sleep at night 'till you were mine

A            D            A  

You were oh so sophisticated

D           A            B7   E

Never interested in what i'd say

D        E7/G#      A

I had to swallow my pride

D        E7/G#      A

So naive, you took me for a ride

D    E7/G#       A       F#m

But now I'm the one to decide

Bm7 E7       C#m7        F#7    Bm7  E7    A

Who needs. well I don't need, who needs you ?

intro

outro: A  E   D C#m7 Bm7 A6



simplify

key

chords

key

original:   current:  

transpose  


A

D

B7

E

E7/G#

F#m

Bm7

E7

C#m7

F#7

B

G#m

C#m

F#sus4

F#

None

expert