Learn Singing, Guitar, Piano, Bass, Percussion at www.NEATcourses.com
Get Chords at www.NEATchords.com

nelly
dilemma
Chords and lyrics

difficulty: intermediate



                

Tuning: E B D G C D

Chords:

    Gm7  C  Am7  Dm

D|---0---x---x---0---|

C|---x---0---0---x---|

G|---3---0---0---2---|

D|---3---5---5---3---|

B|---3---5---5---3---|

E|---3---3---5---1---|

Chord progression(throughout): Gm7, C, Am7, Dm

I play this solo from (3:37 - 3:59):

---------------------------------------------------------------------------------------------|

---------------------------------------------------------------------------------------------|

---------------5^75^7-5-5-5/10-10-10-10^1210^12-10-10-10/14-14-14-14-14-9-9-9-9-9^10-10-10---|

-5-5-5-5^7-7-7-------------------------------------------------------------------------------|

---------------------------------------------------------------------------------------------|

---------------------------------------------------------------------------------------------|

---10-10-10/12-12-12-12-10-10--------------------------------------------------|

-9-----------------------------------------------------------------------5-0-0-|

------------------------------9-9-9-9^10-10-10/12-12-12/10-10-10/7-7-7-5-------|

-------------------------------------------------------------------------------|

-------------------------------------------------------------------------------|

-------------------------------------------------------------------------------|



simplify

key

chords

key

original:   current:  

transpose  


Gm7

C

Am7

Dm

2

3

5

6

5

intermediate