Learn Singing, Guitar, Piano, Bass, Percussion at www.NEATcourses.com
Get Chords at www.NEATchords.com

monkees
im a believer
Chords and lyrics

difficulty: beginner



                [Intro] x2

e|-----1--1--0--0-||-------------------|

B|-----3--3--1--1-||-------------------|

G|--0-------------||-------------------|

D|----------------||-----3-----3----3--|

A|----------------||-3h5---3h5---5-----|

E|----------------||-------------------|

[Verse 1]

G                  D7           G           G

I thought love was only true in fairy tales

G                 D7               G  G

Meant for someone else but not for me

C               G

Love was out to get me

C                 G

That's the way it seemed

C              G              D7     D7*

Disappointment haunted all my dreams

[Chorus]

               G7   C   G

Then I saw her face,

    C       G7     C   G

now I'm a believer

C     G7    C   G

Not a trace

   C           G7   C  G

of doubt in my mind

       G*    C(let ring)

I'm in love (ohh___)

      G(let ring)

I'm a believer!

           F(let ring)

I couldn't leave her if I tried

e|---------------------|

B|---------------------|

G|---------------------|

D|------3-----3---3----| x2

A|--3h5---3h5---5------|

E|---------------------|

[Verse 2]

G                  D7             G            G

I thought love was more or less a givin' thing

G                D7              G   G

Seems the more I gave the less I got

C                 G

What's the use in tryin'?

C              G

All you get is pain

C             G              D7   D7*

When I needed sunshine I got rain

[Chorus]

               G7    C  G

Then I saw her face,

    C       G7     C  G

Now I'm a believer

C     G7    C  G

Not a trace

   C           G7   C  G

Of doubt in my mind

       G*    C(let ring)

I'm in love,(ohh___)

      G(let ring)

I'm a believer

           F(let ring)

I couldn't leave her if I tried

e|---------------------|

B|---------------------|

G|---------------------|

D|------3-----3---3----| x2

A|--3h5---3h5---5------|

E|---------------------|

[Solo]

G7 D7 G G  x2

[Middle 8]

C               G

Love was out to get me

C                 G

That's the way it seemed

C              G              D7     D7*

Disappointment haunted all my dreams

[Chorus]

               G7   C  G

Then I saw her face,

    C       G7     C  G

Now I'm a believer

C     G7    C  G

Not a trace

   C           G7   C  G

Of doubt in my mind

       G*    C(let ring)

I'm in love,(ohh___)

      G(let ring)

I'm a believer

           F(let ring)

I couldn't leave her if I tried

e|---------------------|

B|---------------------|

G|---------------------|

D|------3-----3---3----| x2

A|--3h5---3h5---5------|

E|---------------------|

[Outro]

               G7   C  G

Yes I saw her face

    C       G7     C  G

Now I'm a believer

C     G7     C  G

Not a trace

   C           G7     C  G

of doubt in my mind

     C       G7     C  G

Said I'm a believer

C       G7     C  G

I'm a believer

     C       G7      C       G

Said I'm a believer (I'm a believer)

     C       G7      C       G

Said I'm a believer (I'm a believer)



simplify

key

chords

key

original:   current:  

transpose  


G

D7

C

G7

1

4

5

7

beginner