Learn Singing, Guitar, Piano, Bass, Percussion at www.NEATcourses.com
Get Chords at www.NEATchords.com

michael george
a different corner
Chords and lyrics

difficulty: beginner



                

This is the basic theme for "A Different Corner" by George Michael.

Quite easy to play, and really fun. Anyone wants to improve this piece is

welcomed.

INTRO:

Mute the strings after playing bass strings and just after playing the

chords. Back strum the chords.

 A                                 A

-------------------------|--------------------------

--------2----------2-----|--------2----------2----

--------2----------2-----|--------2----------2----

--------2----------2-----|--------2----------2----

---0----------0---------|----0----------0--------

-0----------0-----------|--0----------0----------

   

 A                                A

------------------------|------------------------

-------2----------2-----|--------2----------2----

-------2----------2-----|--------2----------2----

-------2----------2-----|--------2----------2----

---0----------0---------|----0----------0--------

-0----------0-----------|--0----------0----------

 D                                A

------------------------|-------------------------

--------7----------7----|-------2----------2------

--------7----------7----|-------2----------2------

--------7----------7----|-------2----------2------

---2-----------2--------|---0----------0---------

-2-----------2----------|-0----------0-----------

             

WITH WORDS:

 A                                  A

-------------------------|------------------------

-------2----------2-----|-------2---------2------

-------2----------2-----|-------2---------2------

-------2----------2-----|-------2---------2------

---0----------0---------|---0----------0---------

-0----------0-----------|-0----------0-----------

     I'd say love... 

 D                                A

-------------------------|-----------------------

-------7----------7-----|-------2----------2----

-------7----------7-----|-------2----------2----

-------7----------7-----|-------2----------2----

---2----------2---------|---0----------0--------

-2----------2-----------|-0----------0----------

Same Pattern is repeated till the end of song.



simplify

key

chords

key

original:   current:  

transpose  


A

D

1

5

2

beginner

 

Learn the NEW Way to Sing With Freedom, Confidence, and Control

click to watch now