Learn Singing, Guitar, Piano, Bass, Percussion at www.NEATcourses.com
Get Chords at www.NEATchords.com

blondie
union city blue
Chords and lyrics

difficulty: beginner



                [Intro]

(RIFFS)                

E|--------------------|----------------------|

B|--------------------|----------------------|

G|--------------------|----------------------|

D|--------------------|-4-2-4-2-6-6-4-4-2----|

A|-2/4-2-0----2/4-2---|----------------------|

E|------------------0-|----------------------|

  A                E   A       E

[Verses]

(VERSE CHORDS are played like this)

E|-2--0-2--0-|--4--2--4---------|

B|-2--2-2--2-|--5--2--5---------|

G|-2--2-2--2-|--4--2--4---------|

D|-2--2-2--2-|------------------|

A|-0--0-0--0-|------------------|

E|-----------|------------------|

 | A6-A A6-A |  E  A6 E         | x2

[Verse 1]

A6 A  A6 A  | E           A6    E |

Oh ho Oh ho   what are we gonna do?

A6 A  A6 A | E     A6   E   |

Union Union  Union City blue

C#m                 B

Tunnel to the other side

           C#m                   B

It becomes daylight - I say he's mine

[Verse 2]

A6 A  A6 A  | E           A6    E        |

Oh    power, passion plays a double hand

A6 A  A6 A | E     A6   E   |

Union Union  Union City man

C#m                  B  

Arrive climb up four flights to the orange side

C#m                 B

Rearrange my mind - In turquoise

A6 A  A6 A     | E     A6   E   |

Union Union      Union City blue

A6 A    A6 A   | E     A6   E   |

Skyline passion  Union City blue

[Bridge]

(REPEATS INTRO)

E|--------------------|----------------------|

B|--------------------|----------------------|

G|--------------------|----------------------|

D|--------------------|-4-2-4-2-6-6-4-4-2----|

A|-2/4-2-0----2/4-2---|----------------------|

E|------------------0-|----------------------|

  A                 E   A       E

[Verse 3]

A6 A   A6 A     | E     A6   E   |

Power, passion,   plays a double hand

A6 A   A6 A     | E     A6   E   |

Union, Union,     Union City man

A6 A  A6 A      | E     A6   E   |

I say he's mine   I have a plan

A6 A  A6 A      | E     A6   E   |

I say he's mine   Union City man

[Outro]

A6 A  A6 A     | E     A6   E   |

Oho   Oho        what are we gonna do?

A6 A   A6 A    | E     A6   E   |

Union, Union,    Union City Blue

A6 A  A6 A     | E     A6   E   |

Oho   Oho        what are we gonna do?

A6 A   A6 A    | E     A6   E   |

Union, Union,    Union City Blue

A6 A  A6 A     | E     A6   E   |

Oho   Oho        what are we gonna do?

A6 A   A6 A    | E     A6   E   |

Union, Union,    Union City Blue



simplify

key

chords

key

original:   current:  

transpose  


A

E

C#m

B

1

4

5

6

4

beginner