Learn Singing, Guitar, Piano, Bass, Percussion at www.NEATcourses.com
Get Chords at www.NEATchords.com

black eyed peas
alive
Chords and lyrics

difficulty: expert



                Black Eyed Peas - Alive

Off of "The E.N.D."

Chord Chart

   G     A    Fm    Bm     A

e|-3-----0----2-----2------0-----|

B|-3-----2----2-----3------2-----|

G|-0-----2----2-----4------2-----|

D|-0-----2----4-----4------2-----|

A|-x-----0----4-----2------0-----|

E|-3----------2------------------|

The song is so easy.......

Simple play this progression the entire song.......

Outro @ 4:27

Hit this over and over.....

e|------------|

B|------------|

G|------------|

D|-4-4-4------|

A|-2-2-2------|

E|------------|



simplify

key

chords

key

original:   current:  

transpose  


G

A

Fm

Bm

None

expert