Learn Singing, Guitar, Piano, Bass, Percussion at www.NEATcourses.com
Get Chords at www.NEATchords.com

beatles
words of love
Chords and lyrics

difficulty: beginner



                INTRO:        (Standard riff pattern)      

     A  A   D   D   E    A  A   D   D   E

     d  d   d ^ u|p u|p  d  d   d ^ u|p u|p

e||--0--0-------2---0----0--0-------2---0---

B||--2--2-------3---0----2--2-------3---0---

G||--2--2-------2---1----2--2-------2---1---

D||--2--2---0------------2--2---0-----------

A||--0--0---X------------0--0---X-----------

E||--X--X---X------------X--X---X-----------

     A  A   D   D   E    E  E   D   D   E

     d  d   d ^ u|p u|p  d  d   d ^ u|p u|p

e||--0--0-------2---0----0--0-------2---0---

B||--2--2-------3---0----0--0-------3---0---

G||--2--2-------2---1----1--1-------2---1---

D||--2--2---0------------2--2---0-----------

A||--0--0---X------------2--2---X-----------

E||--X--X---X------------0--0---X-----------

VERSE 1:

A             D   E               A   D  E

Hold me close and tell me how you feel,

                A    D  E

Tell me love is real.

        A   D   E   A

Mm, mm, mm, mm, mm, mm.

VERSE 2:

A             D   E                A   D  E

Words of love you whisper soft and true,

E               A   D  E

Darling, I love you.

        A   D   E   A

Mm, mm, mm, mm, mm, mm.

INSTRUMENTAL: [Middle-Eight]

              (Treble accented lead)

     A  A   D   D   E    A  A   D   D   E

     d  d   d ^ u|p u|p  d  d   d ^ u|p u|p

e||--0--0-------2---0----0--0-------2---0---

B||--2--2-------3---0----2--2-------3---0---

G||--2--2-------2---1----2--2-------2---1---

D||--X--X---0------------X--X---0-----------

A||--X--X---X------------X--X---X-----------

E||--X--X---X------------X--X---X-----------

     A  A   D   D   E    E  E   D   D   E

     d  d   d ^ u|p u|p  d  d   d ^ u|p u|p

e||--0--0-------2---0----0--0-------2---0---

B||--2--2-------3---0----0--0-------3---0---

G||--2--2-------2---1----1--1-------2---1---

D||--X--X---0------------X--X---0-----------

A||--X--X---X------------X--X---X-----------

E||--X--X---X------------0--0---X-----------

              (Standard riff pattern)

     A  A   D   D   E    A  A   D   D   E

     d  d   d ^ u|p u|p  d  d   d ^ u|p u|p

e||--0--0-------2---0----0--0-------2---0---

B||--2--2---3---3---0----2--2---3---3---0---

G||--2--2---2---2---1----2--2---2---2---1---

D||--2--2---0------------2--2---0-----------

A||--0--0---X------------0--0---X-----------

E||--X--X---X------------X--X---X-----------

     A  A   D   D   E    E  E   D   D   E

     d  d   d ^ u|p u|p  d  d   d ^ u|p u|p

e||--0--0-------2---0----0--0-------2---0---

B||--2--2-------3---0----0--0-------3---0---

G||--2--2-------2---1----1--1-------2---1---

D||--2--2---0------------2--2---0-----------

A||--0--0---X------------2--2---X-----------

E||--X--X---X------------0--0---X-----------

VERSE 3:

A               D  

Let me hear you say,

    E               A   D  E

The words I long to hear.

                    A   D  E

Darling when you're near,

        A   D   E   A

Mm, mm, mm, mm, mm, mm.

VERSE 4:

A              D  E                A   D  E

Words of love you whisper soft and true,

               A  D  E

Darling I love you,

        A   D   E   A

Mm, mm, mm, mm, mm, mm.

INSTRUMENTAL REFRAIN & CODA:

              (Standard riff pattern)

     A  A   D   D   E    A  A   D   D   E

     d  d   d ^ u|p u|p  d  d   d ^ u|p u|p

e||--0--0-------2---0----0--0-------2---0---

B||--2--2---3---3---0----2--2---3---3---0---

G||--2--2---2---2---1----2--2---2---2---1---

D||--2--2---0------------2--2---0-----------

A||--0--0---X------------0--0---X-----------

E||--X--X---X------------X--X---X-----------

                         (Fade)

     A  A   D   D   E    E  E   D   D   E

     d  d   d ^ u|p u|p  d  d   d ^ u|p u|p

e||--0--0-------2---0----0--0-------2---0---

B||--2--2-------3---0----0--0-------3---0---

G||--2--2-------2---1----1--1-------2---1---

D||--2--2---0------------2--2---0-----------

A||--0--0---X------------2--2---X-----------

E||--X--X---X------------0--0---X-----------



simplify

key

chords

key

original:   current:  

transpose  


A

D

E

1

4

5

9

beginner