Learn Singing, Guitar, Piano, Bass, Percussion at www.NEATcourses.com
Get Chords at www.NEATchords.com

beatles
the long and winding road
Chords and lyrics

difficulty: expert



                

VERSE

       Bm                 G/A            D       D/C      G

4 +  1 + 2 + 3 + 4 +  1 + 2 + 3 + 4 +  1 + 2 + 3 + 4 +  1 + 2 + 3 + 4 +

e ----|----------------|----------------|----------------|----------------|

B --2-|3---2-----------|--3-3---3-3-----|3---3---0-1---0-|------------0---|

G ----|4-------2-----4-|--4-4---4-4-----|2---2---2-------|----0-------0---|

D ----|4---------4---5-|--5-5---5-5-----|0-----0---------|--0---0---0---0-|

A ----|2---------------|----------------|--------3---3---|----------------|

E ----|----------------|--5-5---5-5-----|----------------|3-------3-------|

  G       D/F#     Bm               Em7     A7       C/D         D7

1 + 2 + 3 + 4 +  1 + 2 + 3 + 4 +  1 + 2 + 3 + 4 +  1 + 2 + 3 + 4 +

e|----------------|----------------|----------------|----0---0---2---|

B|----0---2-3-----|----3-2---------|0---0---2---2---|1---1---1---1---|

G|----0---2-----2-|----4---2-------|0---0---0---0---|0---0---0---2---|

D|--0---0---------|--4-------4---4-|0---0-----2---2-|0-----0---0---0-|

A|----------------|2-----------2---|2-------0---0---|----------------|

E|3-------2---2---|----------------|0-----0---------|----------------|

  G       D/F#     Bm               Em7     A7       D

1 + 2 + 3 + 4 +  1 + 2 + 3 + 4 +  1 + 2 + 3 + 4 +  1 + 2 + 3 + 4 +

e|3---------------|----------------|----------------|----------------|

B|0---0---2-3-----|----3-2---------|0---0---2---2---|3---3---3---3---|

G|0---0---2-----2-|----4---2-------|0---0---0---0---|2---2---2---2---|

D|0-0---0---------|--4-------4---4-|0---0-----2---2-|0-----0---0---0-|

A|----------------|2-----------5---|2-------0---0---|----------------|

E|3-------2---2---|----------------|0-----0---------|----------------|

MIDDLE 8 / SOLO

  D/A     G        D/F#    Em7 A7   D/A     G        D/F#    Em7 A7

1 + 2 + 3 + 4 +  1 + 2 + 3 + 4 +  1 + 2 + 3 + 4 +  1 + 2 + 3 + 4 +

e|----------------|----------------|----------------|----------------|

B|3---3---0---0---|3---3---0---2---|3---3---0---0---|3---3---0---2---|

G|2---2---0---0---|2---2---0---0---|2---2---0---0---|2---2---0---0---|

D|--4---4---0---0-|--4---4---0---2-|--4---4---0---0-|--4---4---0---2-|

A|0---------------|------------0---|0---------------|------------0---|

E|--------3-------|2-------0-------|--------3-------|2-------0-------|

CODA

  D                       G/A       D      

1 + 2 + 3 + 4 +  1 + 2 + 3 + 4 +

e|----------------|----------------|

B|3---2-----------|--3-3---3-3-----|3

G|2-------2-----4-|--4-4---4-4-----|2

D|0---------4---5-|--5-5---5-5-----|0

A|----------------|----------------|

E|----------------|--5-5---5-5-----|

---------------------------------------------------------------------------

CHORDS

       E-A-D-G-B-e

G/A    5-x-5-4-3-x

D/C    x-3-x-2-3-2

Em7    0-2-0-0-0-0

A7     x-0-2-0-2-0

C/D    x-x-0-0-1-0

D7     x-x-0-2-1-2

D/F#   3-x-0-2-3-2 (verse)

D/A    x-0-4-2-3-2

D/F#   2-5-4-2-3-2 (middle 8)

---------------------------------------------------------------------------

VERSE

    Bm                    G/A 

The long and winding road

     D     D/C     G

That leads to your door

G      D/F#       Bm

Will never disappear

Em7             A7     C/D   D7

I've seen that road before

G    D/F#   Bm

It always leads me here

Em7       A7      D

Lead me to your door

VERSE

    Bm                    G/A 

The wild and windy night

         D    D/C     G

That the rain washed away

G     D/F#   Bm

Has left a pool of tears

Em7      A7      C/D   D7

Crying for the day

G     D/F#     Bm

Why leave me standing here

Em7      A7       D

Let me know the way

MIDDLE 8

D/A             G

Many times I've been alone

    D/F#            Em7  A7

And many times I've cried

D/A            G

Anyway, you'll never know

    D/F#           Em7  A7

The many ways I've tried

VERSE

    Bm                     G/A 

But still they lead me back

       D        D/C     G

To the long and winding road

G     D/F#   Bm

You left me standing here

Em7           A7    C/D   D7

A long long time ago

G     D/F#   Bm

Don't keep me waiting here,

Em7       A7      D

Lead me to your door

SOLO

| D/A G | D/F#  Em7 A7 |

| D/A G | D/F#  Em7 A7 |

VERSE

    Bm                     G/A 

But still they lead me back

       D        D/C     G

To the long and winding road

G     D/F#   Bm

You left me standing here

Em7           A7    C/D   D7

A long long time ago

G     D/F#   Bm

Don't keep me waiting here,

Em7       A7      D        G/A           D

Lead me to your door       Yeah, yeah, yeah

                  [= CODA]



simplify

key

chords

key

original:   current:  

transpose  


Bm

G/A

D

D/C

G

D/F#

Em7

A7

C/D

D7

D/A

None

expert

 

Learn the NEW Way to Sing With Freedom,
Confidence, and Control

click to watch now