Learn Singing, Guitar, Piano, Bass, Percussion at www.NEATcourses.com
Get Chords at www.NEATchords.com

beatles
please please me
Chords and lyrics

difficulty: expert



                Standard Tune

e-0-0-0-0-0-0-

B-5-4-2-0-2-0- x2

Verse

E              A E

e-0-0-0-0-0-0--0--

B-5-4-2-0-2-0--2--

G------------1---1      GG AA BB (Bar Chords or it won't sound right)

E              A E

e-0-0-0-0-0-0--0--

B-5-4-2-0-2-0--2--

G------------1---1

D-----2-2--

A---------2

E-0-0------

Chorus

A           F#m       C#m       A           E     A   B   E

e-----------2-2-2-2-2-4-4-4-4-4-5-5-5-5-5---4-4-2-0-0-2----

B-2-2-2-2-2-2-2-2-2-2-4-4-4-4-4-5-5-5-5-5---------------4-5

G-2-2-2-2-2-2-2-2-2-2--------------------------------------

Verse

Chorus

SOLO Before Middle

e-0-0-0-0

B-5-4-2-0

Middle

Bar     Maj     Bar    Maj

A B    E  A E   A B   E A B

Verse

Chorus

Please Please Me oh yeah like I please you  x3

E G C B E



simplify

key

chords

key

original:   current:  

transpose  


E

A

F#m

C#m

B

G

C

None

expert