Learn Singing, Guitar, Piano, Bass, Percussion at www.NEATcourses.com
Get Chords at www.NEATchords.com

beatles
norwegian wood
Chords and lyrics

difficulty: expert



                Bango 5-string Tuning: ADF#AD

Chord's diagram:

(Guitar Rhythm)

    E    Bm   Em   A    F#5  B5   B

e|--4----2----3----5---------7----5|

B|--5----3----5----5----7----7----4|

G|--4----4----4----6----6----4----4|

D|----------------------4----------|

A|---------------------------------|

E|---------------------------------|

[Intro]

(0:08 - 0:15)

     E                                                              Bm          E

e|--|4---4-4-4--|-4---4---4--|4---4-4-4--|4---4---4---|4---4-4-4--|\2-2---2---|/4--4-4-4---|4---4---4---|

B|--|5---5-5-5--|-5---5---5--|5---5-5-5--|5---5---5---|5---5-5-5--|\3-3---3---|/5--5-5-5---|5---5---5---|

G|--|4---4-4-4--|-4---4---4--|4---4-4-4--|4---4---4---|4---4-4-4--|-4-4---4---|-4--4-4-4---|4---4---4---|

D|--|-----------|------------|-----------|------------|-----------|-----------|------------|------------|

A|--|-----------|------------|-----------|------------|-----------|-----------|------------|------------|

E|--|-----------|------------|-----------|------------|-----------|-----------|------------|------------|

  3 |1   2   3    1   2   3   1   2   3   1   2   3    1   2   3   1   2  3     1  2   3    1   2   3   |

                                                                                                        |

(Guitar lead)                                                                                           |

                                                                                                        |

e|--|-----------|------------|-----------|------------|-----------|-----------|------------|------------|

B|--|-----------|------------|-----------|------------|-----------|-----------|------------|------------|

G|--|-----------|/4h6p4------|-----------|------------|-----------|-----------|------------|------------|

D|--|-----------|---------7--|6----------|4---7---6---|-----------|---/7------|------------|------------|

A|--|2----------|------------|-----------|------------|7----------|5-------4--|------------|------------|

E|--|-----------|------------|-----------|------------|--------7--|-----------|7-----7-7--7|7-----7-7--7|

  3 |1   2   3    1   2   3   1   2   3   1   2   3    1   2   3   1   2   3   1   2   3    1   2   3   |

                                                                                                        |

(Bass)                                                                                                  |

                                                                                                        |

G|--|-----------|------------|-----------|------------|-----------|-----------|------------|------------|

D|--|-----------|------------|-----------|------------|-----------|-----------|------------|------------|

A|--|7---------7|------------|7---------7|------------|7---------7|-----------|7----------7|------------|

E|-7|-----------|-7---------7|-----------|7----------7|-----------|7---------7|------------|7----------7|

  3 |1   2   3    1   2   3   1   2   3   1   2   3    1   2   3   1   2   3   1   2   3    1   2   3   |

                                                                                                        |

(Bango)                                                                                                 |

                                                                                                        |

                                                                                                        |

D|--|-----------|---------7--|6----------|4---7---6---|-----------|---/7------|------------|------------|

A|--|-----------|------------|-----------|------------|7----------|5-------4--|------------|------------|

F#|-|-----------|------------|-----------|------------|-----------|-----------|5-----------|------------|

D|--|-----------|------------|-----------|------------|-----------|-----------|------------|------------|

A|--|7----------|/9---7------|-----------|------------|-----------|-----------|------------|------------|

  3 |1   2   3    1   2   3   1   2   3   1   2   3    1   2   3   1   2   3   1   2   3    1   2   3   |

[Verse 1]

(0:16 - 0:31)

E

I once had a girl

                     Bm           E

Or should I say, she once had me?

E                   

She showed me her room

                    Bm           E

"Isn't it good, Norwegian wood?"

[Chorus 1]

(0:32 - 0:47)

    Em                                           A

She asked me to stay and she told me to sit anywhere

   Em                                           F#5    B5  B                                        

So I looked around and I noticed there wasn't a chair

[Verse 2]

(0:48 - 1:03)

E

I sat on the rug

                     Bm       E

Biding my time, drinking her wine

E     

We talked until two

                         Bm       E

And then she said, "It's time for bed"

[Instrumental] (x2)

(1:04 - 1:19)

(Intro Part)

E Bm E

(Bass)

G|--|-----------|------------|-----------|------------|-----------|-----------|------------|------------|

D|-6|-----------|------------|-----------|------------|-----------|-----------|------------|------------|

A|--|7---------7|------------|7---------7|--------5---|7----------|-----------|7-----------|----5-------|

E|--|-----------|7----------7|-----------|7-----------|-----------|x---x---7--|------------|7-------7---|

  3 |1   2   3  |1   2   3   |1   2   3  |1   2   3   |1   2   3  |1   2   3  |1   2   3   |1   2   3   |

G|--|-----------|------------|-----------|------------|-----------|----7---9--|------------|------------|

D|--|-----------|------------|-----------|------------|-----------|9----------|------------|------------|

A|--|7---------7|------------|7---------7|--------5---|7----------|-----------|7----------7|--------5---|

E|--|-----------|-7-------7--|-----------|7-----------|-----------|-----------|------------|7-----------|

  3 |1   2   3  | 1   2   3  |1   2   3  |1   2   3   |1   2   3  |1   2   3  |1   2   3   |1   2   3   |

[Chorus 2]

(1:20 - 1:35)

    

    Em                                               A

She told me she worked in the morning and started to laugh

   Em                                                F#   B5  B

I told her I didn't and crawled off to sleep in the bath

[Verse 3]

(1:36 - 1:52)

E

And when I awoke

                   Bm        E   Bm                                                       

I was alone, this bird had flown

E

So I lit a fire

                   Bm    E

Isn't it good, Norwegian wood?

[Outro]

(1:53 - 1:59)

(Intro Part)



simplify

key

chords

key

original:   current:  

transpose  


E

Bm

Em

A

F#5

B5

B

F#

None

expert

 

Learn the NEW Way to Sing With Freedom,
Confidence, and Control

click to watch now