Learn Singing, Guitar, Piano, Bass, Percussion at www.NEATcourses.com
Get Chords at www.NEATchords.com

beatles
if i needed someone
Chords and lyrics

difficulty: expert



                RIFF 

A

1 + 2 + 3 + 4 +  1 + 2 + 3 + 4 +

e|----------------|----------------|

B|----------0-----|--3---2---0-----|

G|2-2---0-------0h|2---------------|

D|2-2-------------|----------------|

A|0---------------|----------------|

E|----------------|----------------|

VERSE

  A                                                               G/A

1 + 2 + 3 + 4 +  1 + 2 + 3 + 4 +  1 + 2 + 3 + 4 +  1 + 2 + 3 + 4 +

e|----------------|----------------|----------------|----------------|

B|------0---2---3-|--2---0---2-----|------0---2---0-|--2---3---2---3-|

G|2-2-------------|----------------|2-2-------------|--------------4-|

D|2---------------|----------------|----------------|--------------5-|

A|0---------------|----------------|----------------|--------------0-|

E|----------------|----------------|----------------|----------------|

  G/A                               A

1 + 2 + 3 + 4 +  1 + 2 + 3 + 4 +  1 + 2 + 3 + 4 +  1 + 2 + 3 + 4 +

e|----------------|----------------|----------------|----------------|

B|----------------|3---------------|----------0-----|--3---2---0-----|

G|----------------|4---------------|2-2---0-------0h|2---------------|

D|----------------|5---------------|2-2-------------|----------------|

A|----------------|0---------------|0---------------|----------------|

E|----------------|----------------|----------------|----------------|

SOLO

  A                                                               G/A

1 + 2 + 3 + 4 +  1 + 2 + 3 + 4 +  1 + 2 + 3 + 4 +  1 + 2 + 3 + 4 +

e|--0-------------|----------------|--0-------------|----------------|

B|------3---2---0-|--2---3---2-----|------3---2---0-|--2---3---2---3-|

G|2---------------|----------------|2---------------|--------------4-|

D|2---------------|----------------|2---------------|--------------5-|

A|0---------------|----------------|0---------------|--------------0-|

E|----------------|----------------|----------------|----------------|

  G/A                               A

1 + 2 + 3 + 4 +  1 + 2 + 3 + 4 +  1 + 2 + 3 + 4 +  1 + 2 + 3 + 4 +

e|----------------|----------------|----------------|----------------|

B|----------------|3---------------|----------0-----|--3---2---0-----|

G|----------------|4---------4-----|2-2---0-------0h|2---------------|

D|----------------|5-----5---------|2-2-------------|----------------|

A|----------------|0---------------|0---------------|----------------|

E|----------------|----------------|----------------|----------------|

---------------------------------------------------------------------------

CHORDS

          E-A-D-G-B-e

G/A       x-0-5-4-3-3

E7sus4    0-2-0-2-0-0

E7        0-2-0-1-0-0

---------------------------------------------------------------------------

INTRO

| A | % | % | % |

[RIFF]

VERSE

A

If I needed someone to love

A                                   G/A

You're the one that I'd be thinking of

            A

If I needed someone

            [RIFF]

VERSE

A

If I had some more time to spend

A                                G/A

Then I guess I'd be with you, my friend

            A

If I needed someone

            [RIFF]

MIDDLE 8

Em                F#7

Had you come some other day

     F#7               Bm

Then it might not have been like this

Em                F#7             Bm      E7sus4 E7

But, you see, now I'm too much in love

VERSE

A

Carve your number on my wall

    A                              G/A

And maybe you will get a call from me

            A

If I needed someone

            [RIFF]

SOLO

| A | % | % | % |

| G/A | % | A | % |

VERSE

A

If I had some more time to spend

A                                G/A

Then I guess I'd be with you, my friend

            A

If I needed someone

            [RIFF]

MIDDLE 8

Em                F#7

Had you come some other day

     F#7               Bm

Then it might not have been like this

Em                F#7             Bm      E7sus4 E7

But, you see, now I'm too much in love

VERSE

A

Carve your number on my wall

    A                              G/A

And maybe you will get a call from me

            A

If I needed someone

            [RIFF]

OUTRO

| A | % | % | % | A

[RIFF]



simplify

key

chords

key

original:   current:  

transpose  


A

G/A

Em

F#7

Bm

E7sus4

E7

None

expert