Learn Singing, Guitar, Piano, Bass, Percussion at www.NEATcourses.com
Get Chords at www.NEATchords.com

archies
sugar sugar bass
Chords and lyrics

difficulty: expert



                

G|------11----------|

D|11-11----11-13-9--|

A|------------------|

E|------------------|

G|5-88-77

D|-------|

A|-------|

E|-------|

G|------11----------|

D|11-11----11-13-10-|

A|------------------|

E|------------------|

G|---------------------------------|

D|8-8-10-11----10--6-6-10-10-8-8-6-|

A|----------12---------------------|

E|---------------------------------|

plus this is my 1st submitted tab so bare with me



simplify

key

chords

key

original:   current:  

transpose  


0

expert