Learn Singing, Guitar, Piano, Bass, Percussion at www.NEATcourses.com
Get Chords at www.NEATchords.com

aerosmith
sweet emotion
Chords and lyrics

difficulty: expert



                [INTRO]

A      D  

Sweet emotion

A      D

Sweet emotion

[VERSE 1]

VERSE TABS:

e|---------------------------------

B|-3-------------------------------

G|-2---2-----2-------------2-------

D|-0---2-----2-------------2-------

A|-----0-----0-----3p0-----0-------

E|---------------------3-----------

A                                 C          G  D

You talk about things that nobody cares

A                              C             G  D

You're wearing out things that nobody wears

A                            C               G  D

You're calling my name but I gotta make clear

A                           C                G  D

I can't say baby where I'll be in a year

PLAY 4 TIMES:

e|-----------------|-----------------|

B|-----------------|-----------------|

G|-----------------|-----------------|

D|-----------------|-----------------|

A|-5p3p0-----------|-----------------|

E|-------0-2-2---0-|-3-3---0-4---5---|

[VERSE 2]

e|---------------------------------

B|-3-------------------------------

G|-2---2-----2-------------2-------

D|-0---2-----2-------------2-------

A|-----0-----0-----3p0-----0-------

E|---------------------3-----------

A                               C                  G  D

When some sweet hog mama with a face like a gent

A                             C                    G  D

Said my get up and go must've got up and went

A                             C                    G  D

Well I got good news, she's a real good liar

A                                    C             G  D

'Cause the backstage boogie set your pants on fire

PLAY 8 TIMES:

e|-----------------|-----------------|

B|-----------------|-----------------|

G|-----------------|-----------------|

D|-----------------|-----------------|

A|-5p3p0-----------|-----------------|

E|-------0-2-2---0-|-3-3---0-4---5---|

[CHORUS]

A      D  

Sweet emotion

A      D

Sweet emotion

[VERSE 3]

e|---------------------------------

B|-3-------------------------------

G|-2---2-----2-------------2-------

D|-0---2-----2-------------2-------

A|-----0-----0-----3p0-----0-------

E|---------------------3-----------

A                            C                     G  D

When I pulled into town in a police car

A                                C                 G  D

Your daddy said I took it just a little too far

A                                 C                G  D

You're telling me things but your girlfriend lied

A                             C                    G

You can't catch me 'cause the rabbit done died

D

Yes it did

PLAY 4 TIMES:

e|-----------------|-----------------|

B|-----------------|-----------------|

G|-----------------|-----------------|

D|-----------------|-----------------|

A|-5p3p0-----------|-----------------|

E|-------0-2-2---0-|-3-3---0-4---5---|

[VERSE 4]

e|---------------------------------

B|-3-------------------------------

G|-2---2-----2-------------2-------

D|-0---2-----2-------------2-------

A|-----0-----0-----3p0-----0-------

E|---------------------3-----------

A                             C                                G  D

You stand in the front just a shakin' your ass

A                                C                             G  D

I'll take you backstage, you can drink from my glass

A                            C                                 G  D

Your telling me things I can sure understand

A                                      C                       G  D

'Cause a month on the road an' I'll be eating from your hand

PLAY 8 TIMES:

e|-----------------|-----------------|

B|-----------------|-----------------|

G|-----------------|-----------------|

D|-----------------|-----------------|

A|-5p3p0-----------|-----------------|



simplify

key

chords

key

original:   current:  

transpose  


A

D

C

G

None

expert