Learn Singing, Guitar, Piano, Bass, Percussion at www.NEATcourses.com
Get Chords at www.NEATchords.com

aerosmith
seasons of wither
Chords and lyrics

difficulty: intermediate



                [Intro]                                                                 

E|-----------------------------------------------------------------|

B|-----------------------------------------------------------------|

G|-----0-----0---------0-----0----------0----0--------0-----0------|

D|---0-----0-----0---0-----0-----0----0----0---0----2-----2-----2--|

A|-----------------1-----1-----1------------------0-----0-----0----|

E|-3-----3-----3--------------------3----3-------------------------|

[Verse 1]

G                  D           G

Blues hearted lady sleepy was she

G                  D              G

Love for the devil brought her to me

G                   D             G

Tears of a thousand drawn to her sin

G                  D         G

Seasons of wither holdin' me in

[Chorus]

Em         C            G    D      G

Ooh woe is me I feel so bad-ly for you

Em         C            G    D      G

Ooh woe is me I feel so sad-ly for you

G                 Em

In time bound to lose your mind

Em       C

Live on borrowed time

C         Am                     D

Take the wind right out of your sail

[Bridge]

D                       Dsus4   D

Fireflies dance in the  heat   of

D               Dsus4       D

Hound dogs that  bay  at the moon

D                    Dsus4   D

My ship leaves in the mid - night

D                 Dsus4     G

Can't say I'll be back too soon

[Verse 2]

G           D         G

They awaken far far away

G                  D           G

Heat of my candle show me the way

G                   D             G

Tears of a thousand drawn to her sin

G                 D          G

Seasons of wither holdin' me in

[Chorus]

Em         C            G    D      G

Ooh woe is me I feel so bad-ly for you

Em         C            G    D      G

Ooh woe is me I feel so sad-ly for you

G                 Em

In time bound to lose your mind

Em       C

Live on borrowed time

C         Am                     D

Take the wind right out of your sail

[Outro]

D    Dsus4   D

D    Dsus4   D

G      D     G

E|----------------------------------------------------------------------2-|

B|----------------------------------------------------------------------3-|

G|-----0-----0-----0----0-----0-----0-----0----0---------0----0----0----2-|

D|---0-----0----------0-----0------------0----0-----0---0----0------------|

A|------------------------------------------------------------------------|



simplify

key

chords

key

original:   current:  

transpose  


G

D

Em

C

Am

Dsus4

1

2

4

5

6

7

intermediate